忍者ブログ

オトコ40歳、これからどうする?

どうすれば、人生オモシロオカシク暮らせるか?
ヒネリの効いたギター<明菜さんのスコア>ニワトリの足の数は?
[72] [71] [70] [69] [68] [67] [66] [65] [64] [63] [62]

明菜さんのスコア

2011/11/02(Wed)13:54

なにを隠そう、明菜さんのファンなのですが、
初期のころのバンドスコアがえらいことになってるようです(-_-メ

たしかに、少女Aとか、1/2の神話とか、
イントロのギターがカッコイイので、弾いてみたいと思うのだが・・・

これが、ある古本屋さんでの価格。
 
バンドスコア 中森明菜コレクション(楽譜)【古本】
 

当時の定価が1800円です。22倍の値がついてます。

実は、ちょっと前に、ヤフオクで同じの出てました。
背表紙が破れてて状態はそれほどじゃなかったけど、
それでも落札価格は、15,500円也
2曲ほど収録曲数が少ないハンディ版の方でも、15,100円の値がついた。
#一応、どっちも入札してみたんですが・・・8(><8

で、今、ヤフオクで出てる奴・・・・

★ 入手困難 ★ 中森明菜 ★ AKINA BEST 【バンドスコア】
オークション開始価格:49,800 円~


残り時間は9時間です。(終了日時は、11月 2日 22時 47分)
いまんとこ、入札ゼロ。果たして、買う人があられるでしょうか?
#既に何回か入札なしで、自動(?)再出品状態のようだが・・

ていうか、こういうの買う人って、
弾きたい人なのか、それとも、持っていたい人なのか、どっちなんでしょうね?

いずれにせよ、ちょっと手がでない・・・
でも、なんとかして弾いてみたい・・・


というわけで、一応、↓少女Aのイントロの最初のところのつもり

------8-8-------|--------------------|------8-8-------|-------------
----------8-----|--------------------|----------8-----|---------8---
-10b12-----10-8-|-(8)-7-----------10-|10b12------10-8-|-10-8------8-
----------------|-------10-8-10------|----------------|-------------
----------------|--------------------|----------------|-------------
----------------|--------------------|----------------|-------------


これ↑の方が、左手を広げなくていいから、私としては、弾きやすいけど、
弾いてみた系動画としては、↓のような感じに見える。

------------------|---------------------|-------
------13-13-------|---------------------|-------
-10b12-----12-10--|------------------10-|10b12--
----------------13|(13)-12-10---10------|-------
------------------|-----------12--------|-------
------------------|---------------------|-------


で、果たして、正解は?(-.-)~/

拍手[4回]

PR
[0回]

 

大学教育  環境問題  科学・教育  音楽  楽器  ギター  40代男性  40代転職  起業独立  無職  ハンドメイド  木工  日記  ブログ

No.67|エレキギターComment(0)



Comment

コメントフォーム

タイトル:

メッセージ本文:Vodafone絵文字 i-mode絵文字 Ezweb絵文字


 お名前:  メールアドレス:

 ホームページ:  パスワード: